ISO-10303-21;
HEADER;
/* Generated by software containing ST-Developer
 * from STEP Tools, Inc. (www.steptools.com) 
 */

FILE_DESCRIPTION(
/* description */ (''),
/* implementation_level */ '2;1');

FILE_NAME(
/* name */ 'C:\\Users\\raccy_lai\\Desktop\\DN-90ELMA\\ISOF-BL-100.stp',

/* time_stamp */ '2016-07-22T16:58:37+08:00',
/* author */ ('raccy_lai'),
/* organization */ (''),
/* preprocessor_version */ 'ST-DEVELOPER v16.1',
/* originating_system */ 'Autodesk Inventor 2016',
/* authorisation */ '');

FILE_SCHEMA (('AUTOMOTIVE_DESIGN { 1 0 10303 214 3 1 1 }'));
ENDSEC;

DATA;
#10=MECHANICAL_DESIGN_GEOMETRIC_PRESENTATION_REPRESENTATION('',(#13),#421);
#11=SHAPE_REPRESENTATION_RELATIONSHIP('SRR','None',#430,#12);
#12=ADVANCED_BREP_SHAPE_REPRESENTATION('',(#14),#420);
#13=STYLED_ITEM('',(#439),#14);
#14=MANIFOLD_SOLID_BREP('\X2\5BE69AD4\X0\1',#243);
#15=PLANE('',#272);
#16=PLANE('',#276);
#17=PLANE('',#280);
#18=PLANE('',#281);
#19=FACE_BOUND('',#64,.T.);
#20=FACE_BOUND('',#66,.T.);
#21=FACE_BOUND('',#68,.T.);
#22=FACE_BOUND('',#70,.T.);
#23=FACE_BOUND('',#72,.T.);
#24=FACE_BOUND('',#74,.T.);
#25=FACE_BOUND('',#76,.T.);
#26=FACE_BOUND('',#78,.T.);
#27=FACE_BOUND('',#80,.T.);
#28=FACE_BOUND('',#82,.T.);
#29=FACE_BOUND('',#83,.T.);
#30=FACE_BOUND('',#84,.T.);
#31=FACE_BOUND('',#85,.T.);
#32=FACE_BOUND('',#86,.T.);
#33=FACE_BOUND('',#87,.T.);
#34=FACE_BOUND('',#88,.T.);
#35=FACE_BOUND('',#89,.T.);
#36=FACE_BOUND('',#90,.T.);
#37=FACE_BOUND('',#92,.T.);
#38=FACE_BOUND('',#94,.T.);
#39=FACE_BOUND('',#96,.T.);
#40=FACE_BOUND('',#99,.T.);
#41=FACE_BOUND('',#100,.T.);
#42=FACE_BOUND('',#101,.T.);
#43=FACE_BOUND('',#102,.T.);
#44=FACE_BOUND('',#103,.T.);
#45=FACE_BOUND('',#104,.T.);
#46=FACE_BOUND('',#105,.T.);
#47=FACE_BOUND('',#106,.T.);
#48=FACE_OUTER_BOUND('',#63,.T.);
#49=FACE_OUTER_BOUND('',#65,.T.);
#50=FACE_OUTER_BOUND('',#67,.T.);
#51=FACE_OUTER_BOUND('',#69,.T.);
#52=FACE_OUTER_BOUND('',#71,.T.);
#53=FACE_OUTER_BOUND('',#73,.T.);
#54=FACE_OUTER_BOUND('',#75,.T.);
#55=FACE_OUTER_BOUND('',#77,.T.);
#56=FACE_OUTER_BOUND('',#79,.T.);
#57=FACE_OUTER_BOUND('',#81,.T.);
#58=FACE_OUTER_BOUND('',#91,.T.);
#59=FACE_OUTER_BOUND('',#93,.T.);
#60=FACE_OUTER_BOUND('',#95,.T.);
#61=FACE_OUTER_BOUND('',#97,.T.);
#62=FACE_OUTER_BOUND('',#98,.T.);
#63=EDGE_LOOP('',(#173));
#64=EDGE_LOOP('',(#174));
#65=EDGE_LOOP('',(#175));
#66=EDGE_LOOP('',(#176));
#67=EDGE_LOOP('',(#177));
#68=EDGE_LOOP('',(#178));
#69=EDGE_LOOP('',(#179));
#70=EDGE_LOOP('',(#180));
#71=EDGE_LOOP('',(#181));
#72=EDGE_LOOP('',(#182));
#73=EDGE_LOOP('',(#183));
#74=EDGE_LOOP('',(#184));
#75=EDGE_LOOP('',(#185));
#76=EDGE_LOOP('',(#186));
#77=EDGE_LOOP('',(#187));
#78=EDGE_LOOP('',(#188));
#79=EDGE_LOOP('',(#189));
#80=EDGE_LOOP('',(#190));
#81=EDGE_LOOP('',(#191));
#82=EDGE_LOOP('',(#192));
#83=EDGE_LOOP('',(#193));
#84=EDGE_LOOP('',(#194));
#85=EDGE_LOOP('',(#195));
#86=EDGE_LOOP('',(#196));
#87=EDGE_LOOP('',(#197));
#88=EDGE_LOOP('',(#198));
#89=EDGE_LOOP('',(#199));
#90=EDGE_LOOP('',(#200));
#91=EDGE_LOOP('',(#201));
#92=EDGE_LOOP('',(#202));
#93=EDGE_LOOP('',(#203));
#94=EDGE_LOOP('',(#204));
#95=EDGE_LOOP('',(#205));
#96=EDGE_LOOP('',(#206));
#97=EDGE_LOOP('',(#207));
#98=EDGE_LOOP('',(#208));
#99=EDGE_LOOP('',(#209));
#100=EDGE_LOOP('',(#210));
#101=EDGE_LOOP('',(#211));
#102=EDGE_LOOP('',(#212));
#103=EDGE_LOOP('',(#213));
#104=EDGE_LOOP('',(#214));
#105=EDGE_LOOP('',(#215));
#106=EDGE_LOOP('',(#216));
#107=CIRCLE('',#246,4.5);
#108=CIRCLE('',#247,4.5);
#109=CIRCLE('',#249,4.5);
#110=CIRCLE('',#250,4.5);
#111=CIRCLE('',#252,4.5);
#112=CIRCLE('',#253,4.5);
#113=CIRCLE('',#255,4.5);
#114=CIRCLE('',#256,4.5);
#115=CIRCLE('',#258,4.5);
#116=CIRCLE('',#259,4.5);
#117=CIRCLE('',#261,4.5);
#118=CIRCLE('',#262,4.5);
#119=CIRCLE('',#264,4.5);
#120=CIRCLE('',#265,4.5);
#121=CIRCLE('',#267,4.5);
#122=CIRCLE('',#268,4.5);
#123=CIRCLE('',#270,82.5);
#124=CIRCLE('',#271,82.5);
#125=CIRCLE('',#273,51.35);
#126=CIRCLE('',#275,51.35);
#127=CIRCLE('',#277,44.45);
#128=CIRCLE('',#279,44.45);
#129=VERTEX_POINT('',#360);
#130=VERTEX_POINT('',#362);
#131=VERTEX_POINT('',#365);
#132=VERTEX_POINT('',#367);
#133=VERTEX_POINT('',#370);
#134=VERTEX_POINT('',#372);
#135=VERTEX_POINT('',#375);
#136=VERTEX_POINT('',#377);
#137=VERTEX_POINT('',#380);
#138=VERTEX_POINT('',#382);
#139=VERTEX_POINT('',#385);
#140=VERTEX_POINT('',#387);
#141=VERTEX_POINT('',#390);
#142=VERTEX_POINT('',#392);
#143=VERTEX_POINT('',#395);
#144=VERTEX_POINT('',#397);
#145=VERTEX_POINT('',#400);
#146=VERTEX_POINT('',#402);
#147=VERTEX_POINT('',#405);
#148=VERTEX_POINT('',#408);
#149=VERTEX_POINT('',#411);
#150=VERTEX_POINT('',#414);
#151=EDGE_CURVE('',#129,#129,#107,.T.);
#152=EDGE_CURVE('',#130,#130,#108,.T.);
#153=EDGE_CURVE('',#131,#131,#109,.T.);
#154=EDGE_CURVE('',#132,#132,#110,.T.);
#155=EDGE_CURVE('',#133,#133,#111,.T.);
#156=EDGE_CURVE('',#134,#134,#112,.T.);
#157=EDGE_CURVE('',#135,#135,#113,.T.);
#158=EDGE_CURVE('',#136,#136,#114,.T.);
#159=EDGE_CURVE('',#137,#137,#115,.T.);
#160=EDGE_CURVE('',#138,#138,#116,.T.);
#161=EDGE_CURVE('',#139,#139,#117,.T.);
#162=EDGE_CURVE('',#140,#140,#118,.T.);
#163=EDGE_CURVE('',#141,#141,#119,.T.);
#164=EDGE_CURVE('',#142,#142,#120,.T.);
#165=EDGE_CURVE('',#143,#143,#121,.T.);
#166=EDGE_CURVE('',#144,#144,#122,.T.);
#167=EDGE_CURVE('',#145,#145,#123,.T.);
#168=EDGE_CURVE('',#146,#146,#124,.T.);
#169=EDGE_CURVE('',#147,#147,#125,.T.);
#170=EDGE_CURVE('',#148,#148,#126,.T.);
#171=EDGE_CURVE('',#149,#149,#127,.T.);
#172=EDGE_CURVE('',#150,#150,#128,.T.);
#173=ORIENTED_EDGE('',*,*,#151,.F.);
#174=ORIENTED_EDGE('',*,*,#152,.F.);
#175=ORIENTED_EDGE('',*,*,#153,.F.);
#176=ORIENTED_EDGE('',*,*,#154,.F.);
#177=ORIENTED_EDGE('',*,*,#155,.F.);
#178=ORIENTED_EDGE('',*,*,#156,.F.);
#179=ORIENTED_EDGE('',*,*,#157,.F.);
#180=ORIENTED_EDGE('',*,*,#158,.F.);
#181=ORIENTED_EDGE('',*,*,#159,.F.);
#182=ORIENTED_EDGE('',*,*,#160,.F.);
#183=ORIENTED_EDGE('',*,*,#161,.F.);
#184=ORIENTED_EDGE('',*,*,#162,.F.);
#185=ORIENTED_EDGE('',*,*,#163,.F.);
#186=ORIENTED_EDGE('',*,*,#164,.F.);
#187=ORIENTED_EDGE('',*,*,#165,.F.);
#188=ORIENTED_EDGE('',*,*,#166,.F.);
#189=ORIENTED_EDGE('',*,*,#167,.F.);
#190=ORIENTED_EDGE('',*,*,#168,.T.);
#191=ORIENTED_EDGE('',*,*,#167,.T.);
#192=ORIENTED_EDGE('',*,*,#152,.T.);
#193=ORIENTED_EDGE('',*,*,#154,.T.);
#194=ORIENTED_EDGE('',*,*,#156,.T.);
#195=ORIENTED_EDGE('',*,*,#158,.T.);
#196=ORIENTED_EDGE('',*,*,#160,.T.);
#197=ORIENTED_EDGE('',*,*,#162,.T.);
#198=ORIENTED_EDGE('',*,*,#164,.T.);
#199=ORIENTED_EDGE('',*,*,#166,.T.);
#200=ORIENTED_EDGE('',*,*,#169,.F.);
#201=ORIENTED_EDGE('',*,*,#170,.F.);
#202=ORIENTED_EDGE('',*,*,#169,.T.);
#203=ORIENTED_EDGE('',*,*,#170,.T.);
#204=ORIENTED_EDGE('',*,*,#171,.F.);
#205=ORIENTED_EDGE('',*,*,#172,.F.);
#206=ORIENTED_EDGE('',*,*,#171,.T.);
#207=ORIENTED_EDGE('',*,*,#172,.T.);
#208=ORIENTED_EDGE('',*,*,#168,.F.);
#209=ORIENTED_EDGE('',*,*,#151,.T.);
#210=ORIENTED_EDGE('',*,*,#153,.T.);
#211=ORIENTED_EDGE('',*,*,#155,.T.);
#212=ORIENTED_EDGE('',*,*,#157,.T.);
#213=ORIENTED_EDGE('',*,*,#159,.T.);
#214=ORIENTED_EDGE('',*,*,#161,.T.);
#215=ORIENTED_EDGE('',*,*,#163,.T.);
#216=ORIENTED_EDGE('',*,*,#165,.T.);
#217=CYLINDRICAL_SURFACE('',#245,4.5);
#218=CYLINDRICAL_SURFACE('',#248,4.5);
#219=CYLINDRICAL_SURFACE('',#251,4.5);
#220=CYLINDRICAL_SURFACE('',#254,4.5);
#221=CYLINDRICAL_SURFACE('',#257,4.5);
#222=CYLINDRICAL_SURFACE('',#260,4.5);
#223=CYLINDRICAL_SURFACE('',#263,4.5);
#224=CYLINDRICAL_SURFACE('',#266,4.5);
#225=CYLINDRICAL_SURFACE('',#269,82.5);
#226=CYLINDRICAL_SURFACE('',#274,51.35);
#227=CYLINDRICAL_SURFACE('',#278,44.45);
#228=ADVANCED_FACE('',(#48,#19),#217,.F.);
#229=ADVANCED_FACE('',(#49,#20),#218,.F.);
#230=ADVANCED_FACE('',(#50,#21),#219,.F.);
#231=ADVANCED_FACE('',(#51,#22),#220,.F.);
#232=ADVANCED_FACE('',(#52,#23),#221,.F.);
#233=ADVANCED_FACE('',(#53,#24),#222,.F.);
#234=ADVANCED_FACE('',(#54,#25),#223,.F.);
#235=ADVANCED_FACE('',(#55,#26),#224,.F.);
#236=ADVANCED_FACE('',(#56,#27),#225,.T.);
#237=ADVANCED_FACE('',(#57,#28,#29,#30,#31,#32,#33,#34,#35,#36),#15,.T.);
#238=ADVANCED_FACE('',(#58,#37),#226,.F.);
#239=ADVANCED_FACE('',(#59,#38),#16,.T.);
#240=ADVANCED_FACE('',(#60,#39),#227,.T.);
#241=ADVANCED_FACE('',(#61),#17,.T.);
#242=ADVANCED_FACE('',(#62,#40,#41,#42,#43,#44,#45,#46,#47),#18,.T.);
#243=CLOSED_SHELL('',(#228,#229,#230,#231,#232,#233,#234,#235,#236,#237,
#238,#239,#240,#241,#242));
#244=AXIS2_PLACEMENT_3D('placement',#358,#282,#283);
#245=AXIS2_PLACEMENT_3D('',#359,#284,#285);
#246=AXIS2_PLACEMENT_3D('',#361,#286,#287);
#247=AXIS2_PLACEMENT_3D('',#363,#288,#289);
#248=AXIS2_PLACEMENT_3D('',#364,#290,#291);
#249=AXIS2_PLACEMENT_3D('',#366,#292,#293);
#250=AXIS2_PLACEMENT_3D('',#368,#294,#295);
#251=AXIS2_PLACEMENT_3D('',#369,#296,#297);
#252=AXIS2_PLACEMENT_3D('',#371,#298,#299);
#253=AXIS2_PLACEMENT_3D('',#373,#300,#301);
#254=AXIS2_PLACEMENT_3D('',#374,#302,#303);
#255=AXIS2_PLACEMENT_3D('',#376,#304,#305);
#256=AXIS2_PLACEMENT_3D('',#378,#306,#307);
#257=AXIS2_PLACEMENT_3D('',#379,#308,#309);
#258=AXIS2_PLACEMENT_3D('',#381,#310,#311);
#259=AXIS2_PLACEMENT_3D('',#383,#312,#313);
#260=AXIS2_PLACEMENT_3D('',#384,#314,#315);
#261=AXIS2_PLACEMENT_3D('',#386,#316,#317);
#262=AXIS2_PLACEMENT_3D('',#388,#318,#319);
#263=AXIS2_PLACEMENT_3D('',#389,#320,#321);
#264=AXIS2_PLACEMENT_3D('',#391,#322,#323);
#265=AXIS2_PLACEMENT_3D('',#393,#324,#325);
#266=AXIS2_PLACEMENT_3D('',#394,#326,#327);
#267=AXIS2_PLACEMENT_3D('',#396,#328,#329);
#268=AXIS2_PLACEMENT_3D('',#398,#330,#331);
#269=AXIS2_PLACEMENT_3D('',#399,#332,#333);
#270=AXIS2_PLACEMENT_3D('',#401,#334,#335);
#271=AXIS2_PLACEMENT_3D('',#403,#336,#337);
#272=AXIS2_PLACEMENT_3D('',#404,#338,#339);
#273=AXIS2_PLACEMENT_3D('',#406,#340,#341);
#274=AXIS2_PLACEMENT_3D('',#407,#342,#343);
#275=AXIS2_PLACEMENT_3D('',#409,#344,#345);
#276=AXIS2_PLACEMENT_3D('',#410,#346,#347);
#277=AXIS2_PLACEMENT_3D('',#412,#348,#349);
#278=AXIS2_PLACEMENT_3D('',#413,#350,#351);
#279=AXIS2_PLACEMENT_3D('',#415,#352,#353);
#280=AXIS2_PLACEMENT_3D('',#416,#354,#355);
#281=AXIS2_PLACEMENT_3D('',#417,#356,#357);
#282=DIRECTION('axis',(0.,0.,1.));
#283=DIRECTION('refdir',(1.,0.,0.));
#284=DIRECTION('center_axis',(0.,1.,0.));
#285=DIRECTION('ref_axis',(0.707106781186547,0.,0.707106781186548));
#286=DIRECTION('center_axis',(0.,1.,0.));
#287=DIRECTION('ref_axis',(0.707106781186547,0.,0.707106781186548));
#288=DIRECTION('center_axis',(0.,-1.,0.));
#289=DIRECTION('ref_axis',(0.707106781186547,0.,0.707106781186548));
#290=DIRECTION('center_axis',(0.,1.,0.));
#291=DIRECTION('ref_axis',(-1.2335811384724E-16,0.,1.));
#292=DIRECTION('center_axis',(0.,1.,0.));
#293=DIRECTION('ref_axis',(-1.2335811384724E-16,0.,1.));
#294=DIRECTION('center_axis',(0.,-1.,0.));
#295=DIRECTION('ref_axis',(-1.2335811384724E-16,0.,1.));
#296=DIRECTION('center_axis',(0.,1.,0.));
#297=DIRECTION('ref_axis',(-0.707106781186548,0.,0.707106781186547));
#298=DIRECTION('center_axis',(0.,1.,0.));
#299=DIRECTION('ref_axis',(-0.707106781186548,0.,0.707106781186547));
#300=DIRECTION('center_axis',(0.,-1.,0.));
#301=DIRECTION('ref_axis',(-0.707106781186548,0.,0.707106781186547));
#302=DIRECTION('center_axis',(0.,1.,0.));
#303=DIRECTION('ref_axis',(-1.,0.,-1.2335811384724E-16));
#304=DIRECTION('center_axis',(0.,1.,0.));
#305=DIRECTION('ref_axis',(-1.,0.,-1.2335811384724E-16));
#306=DIRECTION('center_axis',(0.,-1.,0.));
#307=DIRECTION('ref_axis',(-1.,0.,-1.2335811384724E-16));
#308=DIRECTION('center_axis',(0.,1.,0.));
#309=DIRECTION('ref_axis',(-0.707106781186547,0.,-0.707106781186548));
#310=DIRECTION('center_axis',(0.,1.,0.));
#311=DIRECTION('ref_axis',(-0.707106781186547,0.,-0.707106781186548));
#312=DIRECTION('center_axis',(0.,-1.,0.));
#313=DIRECTION('ref_axis',(-0.707106781186547,0.,-0.707106781186548));
#314=DIRECTION('center_axis',(0.,1.,0.));
#315=DIRECTION('ref_axis',(0.,0.,-1.));
#316=DIRECTION('center_axis',(0.,1.,0.));
#317=DIRECTION('ref_axis',(0.,0.,-1.));
#318=DIRECTION('center_axis',(0.,-1.,0.));
#319=DIRECTION('ref_axis',(0.,0.,-1.));
#320=DIRECTION('center_axis',(0.,1.,0.));
#321=DIRECTION('ref_axis',(0.707106781186548,0.,-0.707106781186547));
#322=DIRECTION('center_axis',(0.,1.,0.));
#323=DIRECTION('ref_axis',(0.707106781186548,0.,-0.707106781186547));
#324=DIRECTION('center_axis',(0.,-1.,0.));
#325=DIRECTION('ref_axis',(0.707106781186548,0.,-0.707106781186547));
#326=DIRECTION('center_axis',(0.,1.,0.));
#327=DIRECTION('ref_axis',(1.,0.,0.));
#328=DIRECTION('center_axis',(0.,1.,0.));
#329=DIRECTION('ref_axis',(1.,0.,0.));
#330=DIRECTION('center_axis',(0.,-1.,0.));
#331=DIRECTION('ref_axis',(1.,0.,0.));
#332=DIRECTION('center_axis',(0.,1.,0.));
#333=DIRECTION('ref_axis',(-1.,0.,0.));
#334=DIRECTION('center_axis',(0.,1.,0.));
#335=DIRECTION('ref_axis',(1.,0.,0.));
#336=DIRECTION('center_axis',(0.,1.,0.));
#337=DIRECTION('ref_axis',(1.,0.,0.));
#338=DIRECTION('center_axis',(0.,1.,0.));
#339=DIRECTION('ref_axis',(0.,0.,1.));
#340=DIRECTION('center_axis',(0.,1.,0.));
#341=DIRECTION('ref_axis',(1.,0.,0.));
#342=DIRECTION('center_axis',(0.,1.,0.));
#343=DIRECTION('ref_axis',(-1.,0.,0.));
#344=DIRECTION('center_axis',(0.,1.,0.));
#345=DIRECTION('ref_axis',(1.,0.,0.));
#346=DIRECTION('center_axis',(0.,1.,0.));
#347=DIRECTION('ref_axis',(0.,0.,1.));
#348=DIRECTION('center_axis',(0.,1.,0.));
#349=DIRECTION('ref_axis',(1.,0.,0.));
#350=DIRECTION('center_axis',(0.,1.,0.));
#351=DIRECTION('ref_axis',(-1.,0.,0.));
#352=DIRECTION('center_axis',(0.,1.,0.));
#353=DIRECTION('ref_axis',(1.,0.,0.));
#354=DIRECTION('center_axis',(0.,1.,0.));
#355=DIRECTION('ref_axis',(0.,0.,1.));
#356=DIRECTION('center_axis',(0.,-1.,0.));
#357=DIRECTION('ref_axis',(0.,0.,-1.));
#358=CARTESIAN_POINT('',(0.,0.,0.));
#359=CARTESIAN_POINT('Origin',(8.88178419700125E-15,-221.748475278569,-72.5));
#360=CARTESIAN_POINT('',(-3.18198051533945,0.,-75.6819805153395));
#361=CARTESIAN_POINT('Origin',(8.88178419700125E-15,0.,-72.5));
#362=CARTESIAN_POINT('',(3.18198051533948,11.9,-69.3180194846605));
#363=CARTESIAN_POINT('Origin',(8.88178419700125E-15,11.9,-72.5));
#364=CARTESIAN_POINT('Origin',(51.2652416360247,-221.748475278569,-51.2652416360247));
#365=CARTESIAN_POINT('',(51.2652416360247,0.,-55.7652416360247));
#366=CARTESIAN_POINT('Origin',(51.2652416360247,0.,-51.2652416360247));
#367=CARTESIAN_POINT('',(51.2652416360247,11.9,-46.7652416360247));
#368=CARTESIAN_POINT('Origin',(51.2652416360247,11.9,-51.2652416360247));
#369=CARTESIAN_POINT('Origin',(72.5,-221.748475278569,8.88178419700125E-15));
#370=CARTESIAN_POINT('',(75.6819805153395,0.,-3.18198051533945));
#371=CARTESIAN_POINT('Origin',(72.5,0.,8.88178419700125E-15));
#372=CARTESIAN_POINT('',(69.3180194846605,11.9,3.18198051533948));
#373=CARTESIAN_POINT('Origin',(72.5,11.9,8.88178419700125E-15));
#374=CARTESIAN_POINT('Origin',(51.2652416360247,-221.748475278569,51.2652416360247));
#375=CARTESIAN_POINT('',(55.7652416360247,0.,51.2652416360247));
#376=CARTESIAN_POINT('Origin',(51.2652416360247,0.,51.2652416360247));
#377=CARTESIAN_POINT('',(46.7652416360247,11.9,51.2652416360247));
#378=CARTESIAN_POINT('Origin',(51.2652416360247,11.9,51.2652416360247));
#379=CARTESIAN_POINT('Origin',(0.,-221.748475278569,72.5));
#380=CARTESIAN_POINT('',(3.18198051533947,0.,75.6819805153395));
#381=CARTESIAN_POINT('Origin',(0.,0.,72.5));
#382=CARTESIAN_POINT('',(-3.18198051533946,11.9,69.3180194846605));
#383=CARTESIAN_POINT('Origin',(0.,11.9,72.5));
#384=CARTESIAN_POINT('Origin',(-51.2652416360247,-221.748475278569,51.2652416360247));
#385=CARTESIAN_POINT('',(-51.2652416360247,0.,55.7652416360247));
#386=CARTESIAN_POINT('Origin',(-51.2652416360247,0.,51.2652416360247));
#387=CARTESIAN_POINT('',(-51.2652416360247,11.9,46.7652416360247));
#388=CARTESIAN_POINT('Origin',(-51.2652416360247,11.9,51.2652416360247));
#389=CARTESIAN_POINT('Origin',(-72.5,-221.748475278569,0.));
#390=CARTESIAN_POINT('',(-75.6819805153395,0.,3.18198051533947));
#391=CARTESIAN_POINT('Origin',(-72.5,0.,0.));
#392=CARTESIAN_POINT('',(-69.3180194846605,11.9,-3.18198051533946));
#393=CARTESIAN_POINT('Origin',(-72.5,11.9,0.));
#394=CARTESIAN_POINT('Origin',(-51.2652416360247,-221.748475278569,-51.2652416360247));
#395=CARTESIAN_POINT('',(-55.7652416360247,0.,-51.2652416360247));
#396=CARTESIAN_POINT('Origin',(-51.2652416360247,0.,-51.2652416360247));
#397=CARTESIAN_POINT('',(-46.7652416360247,11.9,-51.2652416360247));
#398=CARTESIAN_POINT('Origin',(-51.2652416360247,11.9,-51.2652416360247));
#399=CARTESIAN_POINT('Origin',(0.,5.94999999999999,0.));
#400=CARTESIAN_POINT('',(-82.5,11.9,0.));
#401=CARTESIAN_POINT('Origin',(0.,11.9,0.));
#402=CARTESIAN_POINT('',(-82.5,-1.01033360929657E-14,0.));
#403=CARTESIAN_POINT('Origin',(0.,-1.01033360929657E-14,0.));
#404=CARTESIAN_POINT('Origin',(-51.35,11.9,0.));
#405=CARTESIAN_POINT('',(-51.35,11.9,0.));
#406=CARTESIAN_POINT('Origin',(0.,11.9,0.));
#407=CARTESIAN_POINT('Origin',(0.,10.,0.));
#408=CARTESIAN_POINT('',(-51.35,8.1,0.));
#409=CARTESIAN_POINT('Origin',(0.,8.1,0.));
#410=CARTESIAN_POINT('Origin',(-44.45,8.1,0.));
#411=CARTESIAN_POINT('',(-44.45,8.1,0.));
#412=CARTESIAN_POINT('Origin',(0.,8.1,0.));
#413=CARTESIAN_POINT('Origin',(0.,10.,0.));
#414=CARTESIAN_POINT('',(-44.45,11.9,0.));
#415=CARTESIAN_POINT('Origin',(0.,11.9,0.));
#416=CARTESIAN_POINT('Origin',(0.,11.9,0.));
#417=CARTESIAN_POINT('Origin',(-82.5,-1.01033360929657E-14,0.));
#418=UNCERTAINTY_MEASURE_WITH_UNIT(LENGTH_MEASURE(0.01),#422,
'DISTANCE_ACCURACY_VALUE',
'Maximum model space distance between geometric entities at asserted c
onnectivities');
#419=UNCERTAINTY_MEASURE_WITH_UNIT(LENGTH_MEASURE(1.E-6),#422,
'DISTANCE_ACCURACY_VALUE',
'Maximum model space distance between geometric entities at asserted c
onnectivities');
#420=(
GEOMETRIC_REPRESENTATION_CONTEXT(3)
GLOBAL_UNCERTAINTY_ASSIGNED_CONTEXT((#418))
GLOBAL_UNIT_ASSIGNED_CONTEXT((#422,#425,#423))
REPRESENTATION_CONTEXT('','3D')
);
#421=(
GEOMETRIC_REPRESENTATION_CONTEXT(3)
GLOBAL_UNCERTAINTY_ASSIGNED_CONTEXT((#419))
GLOBAL_UNIT_ASSIGNED_CONTEXT((#422,#425,#423))
REPRESENTATION_CONTEXT('','3D')
);
#422=(
LENGTH_UNIT()
NAMED_UNIT(*)
SI_UNIT(.MILLI.,.METRE.)
);
#423=(
NAMED_UNIT(*)
SI_UNIT($,.STERADIAN.)
SOLID_ANGLE_UNIT()
);
#424=DIMENSIONAL_EXPONENTS(0.,0.,0.,0.,0.,0.,0.);
#425=(
CONVERSION_BASED_UNIT('degree',#427)
NAMED_UNIT(#424)
PLANE_ANGLE_UNIT()
);
#426=(
NAMED_UNIT(*)
PLANE_ANGLE_UNIT()
SI_UNIT($,.RADIAN.)
);
#427=PLANE_ANGLE_MEASURE_WITH_UNIT(PLANE_ANGLE_MEASURE(0.01745329252),#426);
#428=SHAPE_DEFINITION_REPRESENTATION(#429,#430);
#429=PRODUCT_DEFINITION_SHAPE('',$,#432);
#430=SHAPE_REPRESENTATION('',(#244),#420);
#431=PRODUCT_DEFINITION_CONTEXT('part definition',#436,'design');
#432=PRODUCT_DEFINITION('ISOF-BL-100','ISOF-BL-100',#433,#431);
#433=PRODUCT_DEFINITION_FORMATION('',$,#438);
#434=PRODUCT_RELATED_PRODUCT_CATEGORY('ISOF-BL-100','ISOF-BL-100',(#438));
#435=APPLICATION_PROTOCOL_DEFINITION('international standard',
'automotive_design',2009,#436);
#436=APPLICATION_CONTEXT(
'Core Data for Automotive Mechanical Design Process');
#437=PRODUCT_CONTEXT('part definition',#436,'mechanical');
#438=PRODUCT('ISOF-BL-100','ISOF-BL-100',$,(#437));
#439=PRESENTATION_STYLE_ASSIGNMENT((#440));
#440=SURFACE_STYLE_USAGE(.BOTH.,#441);
#441=SURFACE_SIDE_STYLE('',(#442));
#442=SURFACE_STYLE_FILL_AREA(#443);
#443=FILL_AREA_STYLE('',(#444));
#444=FILL_AREA_STYLE_COLOUR('',#445);
#445=COLOUR_RGB('',0.749019607843137,0.749019607843137,0.749019607843137);
ENDSEC;
END-ISO-10303-21;
